吉他谱

为吉他爱好者提供最全最新的吉他曲谱

返回首页 | 好吉他琴行 | 吉他学院 | 吉他谱专题 | 吉他工具 | 帮助

为吉他爱好者提供最全最新的吉他曲谱

普通朋友吉他谱: 歌手陶吉吉, TXT文本格式, finefly供谱。

普通朋友

歌手:陶吉吉 供谱者:finefly 评论此谱 / 打印版本

给此谱打分:

-------------------------------------------------------------------------------
歌曲名:普通朋友 
歌手/乐队:陶喆
编配者(转载来源):网络
曲调:4/4拍 1=C
-------------------------------------------------------------------------------
|-----------1--------------------------------------------|
|---------1----------6-8-10--8h10p8\6----5h6/8-----------|
|-------2----------5-------------------------------------|
|-----3--------------------------------------------------|
|---3----------------------------------------------------|
|-1------------------------------------------------------|

|-----------------------5--------------------------------------------------|
|---------8-----------5-5-5-8---------6-----5---------4------9-7-----------|
|-------9------------5----------------7-----6-------3-------8-----10-8-----|
|----8-------7h8----------------------------------5--------8---------------|
|-7---------------------------------5-----4----3---------------------------|
|-------------------5-------------------------------------1----------------|

|------------------0-------------------------------------------------|
|-------3---------1--------3----------6------------------------------|
|-----3---------0--------3---------3--3-----SLAP GUITAR 2 TIMES------|
|---3------------------3---------5----5------------------------------|
|-1--------0-------------------3-------------------------------------|
|--------------------3-----------------------------------------------|

   () - OPTIONAL

     F    Bb      (C)  F    Bb     (C)  F
   等待 我随时随地在等待 做你感情上的依赖
     Bb          Gm     C
   我没有任何的疑问 这是爱
     F    Bb      (C)  F    Bb     (C)  F
   我猜 你早就想要说明白 我觉得自己好失败
     Bb          Gm     C
   从天堂掉落到深渊 多无奈

     Bbm7   F
   我愿意改变 (what can I do?)

|-----5--5/6-5------|
|-6-8----------6----|
|----------------6--|
|-------------------|
|-------------------|
|-------------------|

     Bbm7    F
   重新再来一遍(just give me chance)

|------------------------------------|
|----8h10--8h10p8--------------------|
|------------------10----------------|
|-10------------------10h11p10h11p10-|
|------------------------------------|
|------------------------------------|

     Bbm7    Am    Dm   Bb             C
   我无法只是普通朋友 感情已那麽深 叫我怎麽能收手
          F  Am        Dm          C
   但你说 I only want to be your friend 做个朋友
     F   Am    Gm        C
   我猜  心中只是 just a friend 不是情人
     Bb7         A   A7     Dm
   我感激  对我这样的坦白 但我给你的爱暂时收不回来
      Gm  Bb7      C7         F
   So I 我不能只是 be your friend

   F Bbm7 F Bbm7
   (I just can’t be your friend)


   I just can’t be
   your friend no,no,no,我不能只是做你的朋友
   不能只是做普通朋友



分享到: