吉他谱

为吉他爱好者提供最全最新的吉他曲谱

返回首页 | 玩乐酷商城 |社区 | 吉他学院 | 吉他谱专题 | 吉他工具 | 帮助

为吉他爱好者提供最全最新的吉他曲谱

情非得以吉他谱: 歌手庾澄庆, TXT文本格式, finefly供谱。

情非得以

歌手:庾澄庆 供谱者:finefly 评论此谱 / 打印版本

给此谱打分:

-------------------------------------------------------------------------------
歌曲名:情非得已 
歌手/乐队:庾澄庆
编配者(转载来源):网络
-------------------------------------------------------------------------------

   intro

   D C  |   G  Am  |  F   G  |  F   G  |  C

         C       G       Am      Em
   难以忘记初次见你  一双瞇人的眼睛
       F         C     F     G
   在我脑海裡  你的身影挥散不去
         C       G             Am        Em
   握你的双手感觉你的温柔  真的有点透不过气
     F       Em          F             G
   你的天真我想珍惜  看到你受委屈我会伤心  Wu Oh Ho Ho...
         C         G       Am         Em
   只怕我自己会爱上你  不敢让自己靠的太近
       F           C       F             G
   怕我没什么能够给你  爱你也须要很大的勇气
         C         G       Am         Em
   只怕我自己会爱上你  也许有天会情不自禁
       F            Em       F     G      C
   想你就让自己哭了自己  爱上你是我情非的已
         C       G       Am      Em
   难以忘记初次见你  一双瞇人的眼睛
       F         Em    F     G
   在我脑海裡  你的身影挥散不去
         C       G             Am        Em
   握你的双手感觉你的温柔  真的有点透不过气
     F       Em          F             G
   你的天真我想珍惜  看到你受委屈我会伤心  Wu Oh Ho Ho...
         C         G       Am         Em
   只怕我自己会爱上你  不敢让自己靠的太近
       F           C       F             G
   怕我没什么能够给你  爱你也须要很大的勇气
         C         G       Am         Em
   只怕我自己会爱上你  也许有天会情不自禁
       F            Em       F     G      C
   想你就让自己哭了自己  爱上你是我情非的已

   solo

   backing chords

    C  |   G  Am  |  F   G  |  F   G  |
    C  |   G  Am  |  F   G  |  F   G  |

   Tab of solo part:

----------------------------|------------|-7-8-10-12-10----8\7-8------------
-----------8----------------|-5-6-8-10-8-|-----------------------------------
-----5-7/9---9\7-5--4-5-7-5-|---5-7-9--7-|-----------------------------------
-5h7------------------------|------------|-----------------------------------
----------------------------|------------|-----------------------------------
----------------------------|------------|-----------------------------------

----------------------------|------------|-7-8-10-12-10----12-13-12----------
-----------8----------------|-5-6-8-10-8-|-----------------------------------
-----5-7/9---9\7-5--4-5-7-5-|---5-7-9--7-|-----------------------------------
-5h7------------------------|------------|-----------------------------------
----------------------------|------------|-----------------------------------
----------------------------|------------|-----------------------------------

   Am    Em    F           C  Bm Am
   什么愿意  我今日又会遇见你
         Em           F             G
   我真的真的不愿意就这样陷入爱的陷阱
        D          A       Bm         F#m
   只怕我自己会爱上你  不敢让自己靠的太近
       G           D       G             A
   怕我没什么能够给你  爱你也须要很大的勇气
         D          A       Bm         F#m
   只怕我自己会爱上你  也许有天会情不自禁
       G           F#m       G     A      D      G     A      D
   想你就让自己哭了自己  爱上你是我情非的已  爱上你是我情非的已

   Tab of the ending solo part:

------------------------------|--------------|-9-10-12-14-12----10\9-10------
-----------10-----------------|-7-8-10-12-10-|-------------------------------
-----7-9/11---11\9-7--6-7-9-7-|---7-9--11-9--|-------------------------------
-7h9--------------------------|--------------|-------------------------------
------------------------------|--------------|-------------------------------
------------------------------|--------------|-------------------------------

------------------------------|--------------|-9-10-12-14-12----10-9-10------
-----------10-----------------|-7-8-10-12-10-|-------------------------------
-----7-9/11---11\9-7--6-7-9-7-|---7-9--11-9--|-------------------------------
-7h9--------------------------|--------------|-------------------------------
------------------------------|--------------|-------------------------------
------------------------------|--------------|-------------------------------



分享到: