吉他谱

为吉他爱好者提供最全最新的吉他曲谱

返回首页 | 好吉他琴行 | 吉他学院 | 吉他谱专题 | 吉他工具 | 帮助

为吉他爱好者提供最全最新的吉他曲谱

Sitting Waiting Wishing吉他谱: 歌手Jack Johnson, TXT文本格式, LivingEnd供谱。

Sitting Waiting Wishing

给此谱打分:

-------------------------------------------------------------------------------
歌曲名: Sitting Waiting Wishing 
歌手/乐队:Jack Johnson
编配者(转载来源):LivingEnd (提供)
-------------------------------------------------------------------------------

Living end
Nicholasshu1@hotmail.com

Standard Tuning

Intro & Verse

e|----------------------------------------------|
B|----------------------------------------------|
G|--5-5--x--5-5-5-5--x--3-3-4-4--x--4-4-4-4--x--|
D|--7-7--x--5-5-5-5--x--5-5-5-5--x--3-3-3-3--x--|
A|--7-7--x--7-7-7-7--x--5-5-5-5--x--5-5-5-5--x--|
E|--5-5--x--5-5-5-5--x--3-3-3-3--x--3-3-3-3--x--|

e|--------------------------------------------------|
B|--------------------------5-5-5-5--x--5-5-5-5--x--|
G|--1-1-2-2--x--2-2-2-2--x--3-3-5-5--x--3-3-3-3--x--|
D|--3-3-3-3--x--1-1-1-1--x--5-5-5-5--x--5-5-5-5--x--|
A|--3-3-3-3--x--3-3-3-3--x--3-3-3-3--x--3-3-3-3--x--|
E|--1-1-1-1--x--1-1-1-1--x--------------------------|


Chorus

e|-------0-----------0-----------0-----------0------|
B|-------0-----------0-----------0-----------0------|
G|-------1-----------1-----------1-----------1------|
D|--2-2--2--2-2-2-2--2--2-2-2-2--2--2-2-2-2--2------|
A|--2-2--2--2-2-2-2--2--2-2-2-2--2--2-2-2-2--2------|
E|--0-0-----0-0-0-0-----0-0-0-0-----0-0-0-0---------|

e|-----------0-----------0-----------0-----------0--|
B|--1-1-1-1--1--1-1-1-1--1--1-1-1-1--1--1-1-1-1--1--|
G|--0-0-2-2--2--2-0-0-0--0--0-0-2-2--2--2-0-0-0--0--|
D|--2-2-2-2--2--2-2-2-2--2--2-2-2-2--2--2-2-2-2--2--|
A|--0-0-0-0--0--0-0-0-0--0--0-0-0-0--0--0-0-0-0--0--|
E|--------------------------------------------------|



Bridge Chords

e|------0---1---3--|
B|--5---0---1---3--|
G|--5---1---2---4--|
D|--5---2---3---5--|
A|--3---2---3---5--|
E|------0---1---3--|

吉他谱 http://www.jitapu.com
我们欢迎您转载曲谱,但请保留我们的地址和作者名!



分享到: