++吉他谱 http://www.jitapu.com - 你的吉他收藏网站++

为您提供大量TXT以及GTP格式吉他曲谱!我们共享吉他谱!

-------------------------------------------------------------------------------
(《后会无期》主题歌)
朴树 - 平凡之路
作词:韩寒 朴树 
作曲:朴树 编曲:朴树
来源:吉他谱网站
-------------------------------------------------------------------------------

KEY=A
capo 2, 变调夹在2品


|分解和弦-前奏x2|

|-----------------------------------------------|
|------0-----------1-----------0----------------|
|---------0-----------0-----------0-----0--2----|
|---2-----------0-----------0--------4--------0-|
|-----------------------------------------------|
|0-----------3-----------3----------------------|


    徘徊着   的 在路上   的 
    你要走   吗      VIA VIA

    易碎的       骄傲着 
    那也曾是 我的模      样


    沸腾着   的 不安着的 
    你要去   哪      VIA VIA

    谜一样的 沉默着      的 
    故事你   真的在听    吗
 

      Em        C       G       D
我曾经跨过山和大海 也穿过人山人海
      Em      C       G       D
我曾经拥有着一切 转眼都飘散如烟
      Em      C   G     D
我曾经失落失望失掉所有方向
      Em   C      G     G 
直到看见平凡才是唯一的答案


|分解和弦-节奏如第一段| 

|-----------------------------------------------|
|------0-----------1-----------0----------------|
|---------0-----------0-----------0-----0--2----|
|---2-----------0-----------0--------4--------0-|
|-----------------------------------------------|
|0-----------3-----------3----------------------|

    当你仍然 还在幻想 
    你的明天 VIA VIA
    她会好吗 还是更烂 
    对我而言是另一天


      Em        C      G        D
我曾经毁了我的一切 只想永远地离开
      Em        C      G        D
我曾经堕入无边黑暗 想挣扎无法自拔
      Em      C      G   D
我曾经象你象他象那野草野花
     Em     C       G     G
绝望着 渴望着 也哭也笑平凡着


|分解和弦|

|-----------------------------------------------|
|------0-----------1-----------0----------------|
|---------0-----------0-----------0-----0--2----|
|---2-----------0-----------0--------4--------0-|
|-----------------------------------------------|
|0-----------3-----------3----------------------|


    向前走 就这么走 就算你被给过什么
    向前走 就这么走 就算你被夺走什么 
    向前走 就这么走 就算你会错过什么
    向前走 就这么走 就算你会


      Em        C       G       D
我曾经跨过山和大海 也穿过人山人海
      Em      C       G       D
我曾经拥有着一切 转眼都飘散如烟
      Em      C   G     D
我曾经失落失望失掉所有方向
      Em   C      G     G 
直到看见平凡才是唯一的答案

      Em        C      G        D
我曾经毁了我的一切 只想永远地离开
      Em        C      G        D
我曾经堕入无边黑暗 想挣扎无法自拔
      Em      C      G   D
我曾经象你象他象那野草野花
     Em     C       G     G
绝望着 渴望着 也哭也笑平凡着


      Em        C       G       D
我曾经跨过山和大海 也穿过人山人海
      Em        C       G       D
我曾经问遍整个世界 从来没得到答案
      Em      C     G    D
我不过象你象他象那野草野花
     Em   C        G     G
冥冥中这是我 唯一要走的路啊


|分解和弦|

|-----------------------------------------------|
|------0-----------1-----------0----------------|
|---------0-----------0-----------0-----0--2----|
|---2-----------0-----------0--------4--------0-|
|-----------------------------------------------|
|0-----------3-----------3----------------------|

    时间无言 
    如此这般
    明天已在眼前
    风吹过的 路依然远
    你的故事讲到了哪


吉他谱 http://www.jitapu.com
我们欢迎您转载曲谱,但请保留我们的地址和作者名!